Allman Bros – Ramblin’ Man

Lyrics

(/) Slide Up () Slide Down (h) Hammer On (p) Pull Off (b) Bend (r) Release (v) Vibrato

Intro run approximation
E|--15--14--12----------------------------------------------
B|--------------15--13--12--------------12--13--12----------
G|--------------------------14--12--14--------------14--12--
D|----------------------------------------------------------
A|----------------------------------------------------------
E|----------------------------------------------------------

Lord I was born a ramblin' man..
E|--3-----------3--
B|-----------1-----
G|-----------0-----
D|-----------2-----
A|--2--0--2--3--2--
E|--3-----------3--

Tryin' to make a livin'...
E|--3-----------------
B|-----------1-----3--
G|-----------0-----2--
D|-----------2-----4--
A|--2--0--2--3--4--5--
E|--3-----------------

When its time...
E|-----3--------------
B|--1--------------1--
G|--0--------------0--
D|--2-----------2--2--
A|--3--2--------2--3--
E|-----3--3--2--0-----

I was born a ramblin' man...
E|--3----------------------3--
B|--------------3----------3--
G|--------------2----------4--
D|--------------4--0h2--4--5--
A|--2--0--2--3--5-------------
E|--3-------------------------

©Allman Bros, transcribed by Ryan Ruiz

Leave a Reply